Noose  by  SENTENCED
         ------------------------
         tab  by  Sami Kyrönlahti
  tune DOWN one step

more SENTENCED tabs at  http://www.sci.fi/~asko/sntncd.html    
  asko@sci.fi

  rhy fig 1.
  pm.----------------------------------------------|   pm  pm  pm  
d|-----------------------------------------------------------------|
A|-----------------------------------------------------------------|
F|-----------------------------------------------------------------|
C|-2-2-2-2-2-2-2-2-----------------2-2-2-2-2-2-2-2---7---7---7---7-|
G|-0-0-0-3-3-3-3-3-2-2-2-5-5-5-5-5-0-0-0-3-3-3-3-3-5-5-5-5-5-5-5-5-|
D|-----------------0-0-0-3-3-3-3-3---------------------------------|

 rhy fig 2.
    pm    pm  pm  pm  pm  pm  pm  pm-------------|
|-----------------------------------------------------------------|
|-----------------------------------------------------------------|
|-----------------------------------------------------------------|
|-7---7-5---5---4---4---3---3---3---------------------------------|
|-7---7-7---7---5---5---3---3---3-2-2-2-5-5-5-5-5-2-2-2-5-5-5-5-5-|
|---5-----0---0---0---0---1---1---0-0-0-3-3-3-3-3-0-0-0-3-3-3-3-3-|

 rhy fig 3.
    pm                pm                pm                 pm-----------------| 
|------------------------------------------------------------------------------|
|------------------------------------------------------------------------------|
|------------------------------------------------------------------------------|
|-2---2---2---------------------------2---2---2---------7----------------------|
|-0-0-0-3---5-3h5p3-2---2-2-5-3-2h3p2-0-0-0-3---5-3h5p3-5--5-5-7-6-5-0-5-4-3-0-|
|-------------------0-0-0------------------------------------------------------|


w/rhy fig 1.  x1      
No way out of your misery...

 rhy fig 4.
 pm-----------------------------------------------|   pm  pm-------------|
|-------------------------------------------------------------------------|
|-------------------------------------------------------------------------|
|-------------------------------------------------------------------------|
|-2-2-2-2-2-2-2-2-----------------2-2-2-2-2-2-2-2---7---7-----------------|
|-0-0-0-3-3-3-3-3-2-2-2-5-5-5-5-5-0-0-0-3-3-3-3-3-5-5-5-5-7-6-5-0-5-4-3-0-|
|-----------------0-0-0-3-3-3-3-3-----------------------------------------|
Feeling depressed and hollow...

w/rhy fig 1.
w/rhy fig 2. 


  rhy fig 5.
|-----------------------------------------------------------------------------------------|
|-----------------------------------------------------------------------------------------|
|-2--4--5--4--5--7--9--7--5--4--5--7--9--7--5--4--5--7--5--4--0--2---5--4--0-----4--0--2--|
|-----------------------------------------------------------------------------2-----------|
|-----------------------------------------------------------------------------------------|
|-----------------------------------------------------------------------------------------|
another guitar plays A5, G5, F5, D5 and E5 

w/rhy fig 1.
w/rhy fig 4.
w/rhy fig 1.
w/rhy fig 2.
w/rhy fig 5.
w/rhy fig 3.

solo  w/rhy fig 1. (improvise)
|----------------------------------------------------------|
|----------------------------------------------------------|
|-0-2--0-2--0-2--0-2--0-2--0-2--0-2--0-2--0--2----2-/5-2-0-|
|-0-2--0-2--0-2--0-2--0-2--0-2--0-2--0-2--0--2-0--2-/5-2-0-|
|----------------------------------------------------------|
|----------------------------------------------------------|

     ~harm.                                      *bend 1/2 step and hold
|---------------------------------8-8-8--10--8--5-----------------|
|---------------------------------8-8-8--10--8--5----7------------|
|-2--2~-2-2--0-2-2-2-2--0-2-2-2-2-----------------7******7--5--4--|
|-2-----2-2--0-2-2-2-2--0-2-2-2-2---------------------------------|
|-----------------------------------------------------------------|
|-----------------------------------------------------------------|


|--------------------------------------------------------------------|
|---------------------------------------1--3--1h3p1----1----1--------|
|-2----4/5--4--2---2-------2--4/5--------------------2---2-----0--2--|
|----------------2---0-----------------------------------------------|
|--------------------------------------------------------------------|
|--------------------------------------------------------------------|

w/rhy fig 2.
w/rhy fig 5.


|-------------------------------------------------|
|-------------------------------------------------|
|-------------------------5-4-2-4---0-------------|
|---------------------------------------7-7-7-7\--|
|-3-2-0-2------0-0-0-0----------------------------|
|-----------3-------------------------------------|


  http://www.sci.fi/~asko/sntncd.html