Dmbtabs.com | Site News | Features | Virtual Jams | Forum | Multimedia | Links   Site Help  
 
  Dmbtabs.com > Under The Table And Dreaming > Typical Situation >
 Tim's solo from Live at Luther College
Notes

Tim Reynolds' solo from Live at Luther College.

Here is the key for my bend notation.

10^h = bend at the tenth fret, one half step
10^(h) = bend at the tenth fret, one half step, then release bend
10^w and 10^(w), same as previous two, except the bend is a whole step
w^10 = Pre-bend a whole step to the tenth fret note (bend at the eighth fret in this case)
w^(10) = same as above, but release the bend
h^10 and h^(10), same as previous two, except the pre-bend is a half step


Solo Tab

e:--7-7-7-7--7-7-7------8--8--7-7---8--8--8--8---7-7-|
B:--8-8-8-8--8-8-8--10-10-10--8-8--10-10-10-10---8-8-|
G:---------------------------------------------------|
D:---------------------------------------------------|
A:---------------------------------------------------|
E:---------------------------------------------------|
e:---------------------12-12-12--15-15-15--15-15-15--15--15---12-12-12--|
B:-10-10-10--14-14-14---------------------------------------------------|
G:----------------------------------------------------------------------|
D:----------------------------------------------------------------------|
A:----------------------------------------------------------------------|
E:----------------------------------------------------------------------|

e:-10------------------------------------------------------------------|
B:----12-12--13^w-13^w-13-12------------12--13^w-13^w-13^(w)-13-12-----|
G:---------------------------12---12-14----------------------------12--|
D:---------------------------------------------------------------------|
A:---------------------------------------------------------------------|
E:---------------------------------------------------------------------|

e:--------------------------------------------------------------------------|
B:---12--13^w-13^w-13^(w)-13-12----------12-13^w-13^w--13^w-13^w--13^w-13^w-|
G:-14--------------------------12--12-14------------------------------------|
D:--------------------------------------------------------------------------|
A:--------------------------------------------------------------------------|
E:--------------------------------------------------------------------------|
                                                                       
e:------------------------------15-15-15---------15------15-----15----|
B:--w^15-13-12-----15-12-----------------------15------15---------15--|
G:--------------12-------12-12---------------16----16-------(16)------|
D:--------------------------------------------------------------------|
A:--------------------------------------------------------------------|
E:--------------------------------------------------------------------|
                                                             
e:-------15-----15-----15------15------15-------------------|
B:------------15-----15------15------15----17-15------------|
G:--16-16---16----16------16^h----16--------------18--16-14-|
D:----------------------------------------------------------|
A:----------------------------------------------------------|
E:----------------------------------------------------------|
e:-----------------------------------15--17-15---15-17--19--15--17-15-15-17-|
B:-------14--15-16-17--17-17-17-17------------------------------------------|
G:-14-16--------------------------------------------------------------------|
D:--------------------------------------------------------------------------|
A:--------------------------------------------------------------------------|
E:--------------------------------------------------------------------------|

e:-19--15--17-15-15-17---19--17--19-17-17-19--17-19-17------------17--15-15-|
B:------------------------------------------------------17-16-15------------|
G:--------------------------------------------------------------------------|
D:--------------------------------------------------------------------------|
A:--------------------------------------------------------------------------|
E:--------------------------------------------------------------------------|
            (Really fast...
e:----------------------------15--------------15--------------15----------13|
B:-15-13-12-------15--15--15------15--12--15------15--12--15------15--13----|
G:-----------14-12--12--12--12--12--12--12--12--12--12--12--12--12--12--12--|
D:--------------------------------------------------------------------------|
A:--------------------------------------------------------------------------|
E:--------------------------------------------------------------------------|
  (Still Really Fast)
e:----------------------15--15------15--15-----------------------------------|
B:--13--12--15--14--14----------14-------------12-13--12---------------------|
G:12--12--12--12--12--12--12--12--12--12--12-14----------14--12--11--9--7--5-|
D:---------------------------------------------------------------------------|
A:---------------------------------------------------------------------------|
E:---------------------------------------------------------------------------|
e:|-------------------------------------------------------------------------|
B:|--3-3-3-3-3-3-3/-6-6-6-6-6-6/-10-10-10-10-10-10-10/-17-17-17-17-17-17-17-|
G:|-4-4-4-4-4-4-2-/5-5-5-5-5-5-/9--9--9--9--9--9--9--/17-17-17-17-17-17-17--|
D:|-------------------------------------------------------------------------|
A:|-------------------------------------------------------------------------|
E:|-------------------------------------------------------------------------|

e:-15-15-15-15--15-15--15--15-15--15--15--15-15--15-15--15-15--15--15-15-|
B:----12-12-12--12-12--12--12-12--12--12--12-12--12-12--12-12--12--12-12-|
G:----14-14-14--12-12--14--14-14--12--14--14-14--12-12---------12--14-14-|
D:-----------------------------------------------------------------------|
A:-----------------------------------------------------------------------|
E:-----------------------------------------------------------------------|
                                                                 
e:-12-12--12--12-12--12-12--12--12--12--10-10-10--10--10-10-10--10-|
B:-13-13--13--13-13--13-13--13--13--13---8--8--8---8---8--8--8---8-|
G:-14-14--14--12-14--14-12--14--14--12---7--7--7---7---7--7--7---7-|
D:-----------------------------------------------------------------|
A:-----------------------------------------------------------------|
E:-----------------------------------------------------------------|

e:-7--7-7-7-7-10-7-7-7-10-7--------------------------------------------------|
B:-8--8-8-8-8--8-8-8-8--8-8--10-10-10-10-10-10-10-10-10-10-10-10-10-10-10-10-|
G:-7--7-7-7-7--7-7-7-7--7-7--10-10-10-10-10-10-10-10--9--9--9--9--9--9--9--9-|
D:---------------------------------------------------------------------------|
A:---------------------------------------------------------------------------|
E:---------------------------------------------------------------------------|
                                      
e:|---------------------------------||
B:|---------------------------------||
G:|-9----9---7----7---5---5----4----||
D:|-10---10--9----9---7---7----5----||
A:|---------------------------------||
E:|---------------------------------||

 

 

Need guitar strings?

The Musician Store has virtually every brand of strings, online ordering, 24-hour shipping, and great prices.


Copyright ©2000 Dmbtabs.com  |  All Rights Reserved  |  Created by Mike Bauer  |    Privacy Statement

Songs and lyrics © Dave Matthews Band, RCA Records, and Bama Rags, Inc 1991-2000