One With Misery
              -------------------
                 by SENTENCED

 tab by Asko Mäki  asko@sci.fi

       more SENTENCED tabs at http://www.sci.fi/~asko/sntncd.html

 tube down to D
                 rhy fig 1.
d|-------------|-------|------|-----------|-----|-------|-------|
A|-------------|-------|------|-----------|-----|-------|-------|
F|-------7-5-4-|-2-----|----2-|-2---------|-----|-2-----|-----2-|
C|-------7-5-4-|-2-----|----2-|-2---------|-----|-2-----|-----2-|
G|-------5-3-2-|-0-----|----0-|-0---------|-----|-0-----|-----0-|
D|-------------|-------|------|-----------|-----|-------|-------|


           end rhy fig 1.
                         pm      pm        pm      pm
|---------|------------|-----------------|-----------------|
|---------|------------|-----------------|-----------------|
|-2-------|------7-5-4-|---5-5-5---4-4-4-|---0-0-0---2-2-2-|
|-2-------|------7-5-4-|---5-5-5---4-4-4-|---0-0-0---2-2-2-|
|-0-------|------5-3-2-|-0-------0-------|-0-------0-------|
|---------|------------|-----------------|-----------------|


                    w/fill 1.               fill 1.
  pm      pm        pm      pm             pm      pm 
|-----------------|-----------------|    |-----------------|
|-----------------|-----------------|    |---------------5-|
|---7-7-7---5-5-5-|---4-4-4---5-5-5-|    |---4-4-4-----5---|
|---7-7-7---5-5-5-|---4-4-4---5-5-5-|    |---4-4-4---5-----|
|-0-------0-------|-0-------0-------|    |-0-------0-------|
|-----------------|-----------------|    |-----------------|


 rhy fig 2.                                              end rhy fig 2.
  pm>>>>>>>>>>>>>>>>>>>>>>>>>>>>>>>>>>>>>>>>>>>>>>>>>>>>>>>>>>>>>>>>>>>>>|
|-----------------|-----------------|-----------------|-----------------|
|-----------------|-----------------|-----------------|-----------------|
|-5-5-5-5-5-4-4-4-|-4-0-0-0-0-2-2-2-|-2-7-7-7-7-5-5-5-|-5-4-4-4-4-5-5-5-|
|-5-5-5-5-5-4-4-4-|-4-0-0-0-0-2-2-2-|-2-7-7-7-7-5-5-5-|-5-4-4-4-4-5-5-5-|
|-----------------|-----------------|-----------------|-----------------|
|-----------------|-----------------|-----------------|-----------------|

  rhy fig 3.
|--3-3-3-3-3-3-3-3-|---1-1-1-1-0-0-0-|------|-----------------|
|--3-3-3-3-3-3-3-3-|---3-3-3-3-3-3-3-|----/-|-----------------|
|--0-0-0-0-0-0-0-0-|-2-2-2-2-2-2-2-2-|-*-/--|-----------------|
|------------------|-0---------------|--/-*-|-----------------|
|------------------|-----------------|-/----|-5/7---7---5/7---|
|------------------|-----------------|------|-3/5-5-5-5-3/5-5-|

|-----------------|-3-3-3-3-3-3-3-3-|---1-1-1-1-0-0-0-|---1-1-3-3-1-0-0-|
|-----------------|-3-3-3-3-3-3-3-3-|---3-3-3-3-3-3-3-|---3-3-3-3-3-3-3-|
|-----------------|-0-0-0-0-0-0-0-0-|-2-2-2-2-2-2-2-2-|-2-2-2-2-2-2-2-2-|
|-----------------|-----------------|-0---------------|-0---------------|
|-5/7-7-5-7-7-5---|-----------------|-----------------|-----------------|
|-3/5-5-3-5-5-3---|-----------------|-----------------|-----------------|

                     end rhy fig 3.
|-0-0-0-0-0-0-0-0-|-3-3-3-3-3-3-3-3-|
|-1-1-1-1-1-1-1-1-|-3-3-3-3-3-3-3-3-|
|-2-2-2-2-2-2-2-2-|-0-0-0-0-0-0-0-0-|
|-2-2-2-2-2-2-2-2-|-----------------|
|-----------------|-----------------|
|-----------------|-----------------|

play rhy figs 2 & 3


  chorus
|-1-1-1-1-1-0-0-0-|-0-0-0-0-0-0-0-0-|-3-3-3-3-3-3-3-3-|-0-0-0-0-0-0-0-0-|
|-3-3-3-3-3-3-3-3-|-1-1-1-1-1-1-1-1-|-3-3-3-3-3-3-3-3-|-1-1-1-1-1-0-0-0-|
|-2-2-2-2-2-2-2-2-|-0-0-0-0-0-0-0-0-|-0-0-0-0-0-0-0-0-|-2-2-2-2-2-2-2-2-|
|-----------------|-----------------|-----------------|-2-2-2-2-2-2-2-2-|
|-----------------|-----------------|-----------------|-----------------|
|-----------------|-----------------|-----------------|-----------------|

|-1-1-1-1-1-1-1-1-|-1-1-1-1-1-1-1-1-|-0-0-0-0-0-0-0-0-|-3-3-3-3-3-3-3-3-|
|-1-1-1-1-1-1-1-1-|-3-3-3-3-3-3-3-3-|-1-1-1-1-1-1-1-1-|-3-3-3-3-3-3-3-3-|
|-2-2-2-2-2-2-2-2-|-2-2-2-2-2-2-2-2-|-2-2-2-2-2-2-2-2-|-0-0-0-0-0-0-0-0-|
|-3-3-3-3-3-3-3-3-|-----------------|-2-2-2-2-2-2-2-2-|-----------------|
|-----------------|-----------------|-----------------|-----------------|
|-----------------|-----------------|-----------------|-----------------|

w/rhy fig 1.
the last bar w/fill 2.

 fill 2.
|------------|
|------3-----|
|--------5-4-|
|------------|
|------------|
|------------|

solo
  F             D                             A            G
|-------------|-----------------------------|------------|-----------------|
|-----^-------|---------8-----------^-------|------------|-----------------|
|-----5---5p4-|---4-7*----7p5p4-----5---5p4-|------------|-----------------|
|-3-----3-----|-5---------------7-----7-----|--5---------|-----5-----------|
|-------------|-----------------------------|-------5----|-5-7---5---5p3-2-|
|-------------|-----------------------------|------------|-----------------|

  F          D                          A
|----------|--------------------------|-------------------------|
|----------|--------------------------|---8---------------------|
|----------|--------------9p7----9----|-9-----------------------|
|------7-7-|-9-10-9-7--10-----10------|-----10-12-10-9-10----10-|
|-5--------|--------------------------|-------------------------|
|----------|--------------------------|-------------------------|

  G                      F                     D
|----------------------|--------------------|------------------------|
|-10-8---8-------------|-----^--------------|-/10-10-10-8-8--8---6-6-|
|------9---9----9-7----|-----5---5p4--5-7---|-/10-10-10-9-9-10p9-7-7-|
|------------10-----10-|-7-----7------------|------------------------|
|----------------------|--------------------|------------------------|
|----------------------|--------------------|------------------------|

  A                        G
|------------------------|-----------------------|
|-/10-10-10-8-8--8---6-6-|-/10---10--8--6--8---\-|
|-/10-10-10-9-9-10p9-7-7-|-/9----9---7--5--7---\-|
|------------------------|-----------------------|
|------------------------|-----------------------|
|------------------------|-----------------------|


play chorus 2x first time without the first bar

  the end
|-----------------------------------------------------   -
|--------------------------------------------------   - 
|-2------------------------7--5--4---2----------          -
|-2------------------------7--5--4---2----------  -  -
|-0------------------------5--3--2---0------   -- -- 
|------------------------------------------    - -  -- -
 
  more SENTENCED tabs at http://www.sci.fi/~asko/sntncd.html