LET GO
                          --------------
                           by SENTENCED

tablature by Sami Kyrönlahti
written by Asko Mäki  asko@sci.fi

tune down to D

  (fade in)
d|----------------------|----------------------|
A|'---------------------|---------------------'|
F|--6--*-----*----------|-6--*-----*-----*-----|
C|-----0--7--0--6-------|----0--7--0--6--0-----|
G|'----------------7--5-|-------------------7-'|
D|----------------------|----------------------|

                                              to fig. 1.
|---------------------|---------------------|-----
|---------------------|---------------------|-----
|-6--*-----*----------|-6--*-----*----------|-----
|----0--7--0--6-------|----0--7--0--7-----6-|-4~~~
|----------------7--5-|----------------4----|-----
|---------------------|---------------------|-----

  fig. 1. 1st (and 2nd) time w/fill 1.  3rd & ard time w/riff 1.
|----------------------|------------------------|------------------------|
|'---------------------|----------------2-------|------------------------|
|----------------------|----2-----4-----------2-|-4-----4-----6-----7----|
|---4-----4-----6----7-|-2-----2-----2-----2----|----4-----4-----4-----4-|
|'-----4-----4-----4---|------------------------|------------------------|
|----------------------|------------------------|------------------------|

|---------------------|
|--------------------'|
|-6-----4-----6-----4-|
|----4-----4-----4----|
|--------------------'|
|---------------------|

fill 1                  x (pick and slide form up to down)
|---|---|---|-----|--------|------|------|------|
|---|---|---|-----|--------|------|------|------|
|---|---|---|-----|---xxxxx|xxxxxx|xxxxxx|xxxxxx|
|---|---|---|---4-|-4------|------|------|------|
|---|---|---|---4-|-4------|------|------|------|
|---|---|---|---2-|-2------|------|------|------|

riff 1.
|----------------|---------------|---------------|------------------|
|'---------------|---------------|---------------|-----------------'|
|----------------|---------------|---------------|------------------|
|------4-----4---|-----2-----2---|-----1-----1---|-2-----1-----1----|
|'---------------|-0-0---0-0---0-|-2-2---2-2---2-|---2-2---2-2---2-'|
|--2-2---2-2---2-|---------------|---------------|------------------|

riff 2.a
|-----------------------|------------------|----------|------------|
|-----------------------|------------------|----------|------------|
|-----------------------|------------------|----------|------------|
|---4-4-x-x-x--x-x--x-x-|-x--x-x-x--2------|-4-4--xxx-|-xx--2------|
|---4-4-x-x-x--x-x--x-x-|-x--x-x-x----x----|-4-4--xxx-|-xx----x-3~-|
|---2-2-x-x-x--x-x--x-x-|-x--x-x-x------3~-|-2-2--xxx-|-xx---------|

                                --------------|   -----|
                                |1                |2
|----------|----------|-------|-----------------|-------|
|----------|----------|-------|----------------'|-------|
|----------|----------|-------|-----------------|-------| to fill 2.
|-4-4--xxx-|-9--------|-7-----|-----7-----------|-(7)---|
|-4-4--xxx-|-7----7\4-|-5-----|-5-5---4--------'|-(5)---|
|-2-2--xxx-|----------|-------|---------7-5-4~--|-------|

 fill 2.
|--------|------------|--------|---------------|
|--------|------------|--------|---------------|
|--6-----|-(6)---4--7-|-6------|---------------|
|--6-----|-(6)---4--7-|-6------|-----7---------|
|--4-----|-(4)---2--5-|-4------|-5-5---4-------|
|--------|------------|--------|---------7-5-4-|

riff 3.
|---------------|---------------|---------------|---------------|
|---------------|---------------|---------------|---------------|
|---------------|---------------|---------------|---------------|
|-----4-----4---|-----2-----2---|-----4-----4---|-----7-------9-|
|---------------|-0-0---0-0---0-|-2-2---2-2---2-|-5-5---5-7-7---|
|-2-2---2-2---2-|---------------|---------------|---------------|

|---------------|---------------|---------------|---------------|
|---------------|---------------|---------------|---------------|
|---------------|---------------|---------------|---------------|
|-----4-----4---|-----2-----2---|-----9-----9---|-----7---------|
|---------------|-0-0---0-0---0-|-7-7---7-7---7-|-5-5---4-------|
|-2-2---2-2---2-|---------------|---------------|---------7-5-4-|

 fig 2. (w/riff 3.)
|-------------|------------|------|-----------------------|
|-------------|------------|------|-----------------------|
|-------------|--------4-6-|-4~---|--------------------4--|
|---4-4--6-7~-|---7-7------|------|--7--7--6--4--6--7-----|
|-------------|------------|------|-----------------------|
|-------------|------------|------|-----------------------|

|-------------|-----------|--------------|-----------------------|
|-------------|-----------|-5------------|-----------------------|
|-------------|-------4-6-|--------------|-----------------------|
|---4-4--6-7~-|--7-7------|-----7--6--4--|-7--7--6--4--6--7--6-\-|
|-------------|-----------|--------------|-----------------------|
|-------------|-----------|--------------|-----------------------|

riff 2.b
|-----------------|       |------------|-------|
|-----------------|       |------------|-------| first time,  goal 1.
|-------<><>------| etc.  |------------|-------|
|--4-4--xxxx-<><>-|       |-9------*-*-|-7-----| second time, goal 2.
|--4-4-------xxxx-|       |-7----7\4-4-|-5-----|
|--2-2------------|       |------------|-------|

- fill 2.

- fig 2. w/riff 3.  x2

- riff 2.a  with guitar solo

  fig.3    second time w/fig.4
|---------------|---------------|---------------|---------------|
|'--------------|---------------|---------------|---------------|
|-6-*---*-------|-6-*---*---*---|-6-*---*-------|-6-*---*---*---|
|---0-7-0-6-----|---0-7-0-6-0---|---0-7-0-6-----|---0-7-0-6-0---|
|'----------7-5-|-------------7-|-----------7-5-|-------------7-|
|---------------|---------------|---------------|---------------|

|--------------|----------------|--------------|----------------|
|--------------|----------------|--------------|---------------'|
|-6------------|-6--------------|-6------------|-6--------------|
|----7---6-----|-----7----6-----|----7---6-----|-----7---6------|
|--*---*---7---|---*---*----*-7-|--*---*---7---|---*---*---*-7-'|
|--7---7-----7-|---7---7----7---|--7---7-----7-|---7---7---7----|


fig.4
|----------------|-----------------|----------------|-----------------|
|----------------|-----------------|----------------|-----------------|
|-6h7-7-7-6-7-9--|-6h7-7-7-7---6-9-|-6h7-7-7-6-7-9--|-6h7-7-7-7---6-9-|
|----------------|-----------9-----|----------------|-----------9-----|
|----------------|-----------------|----------------|-----------------|
|----------------|-----------------|----------------|-----------------|

|----------------|----------------|----------------|----------------|
|----------------|----------------|----------------|----------------|
|-2h4-4-4-4-4-4--|-2h4-4-4-4-4-4--|-2h4-4-4-4-4-4--|-2h4-4-4-4-4-4--|
|----------------|----------------|----------------|----------------|
|----------------|----------------|----------------|----------------|
|----------------|----------------|----------------|----------------|


- fill. 2

- fig 2. w/riff 3.

- fig 1. w/riff 1.

  w/riff 1.0
|-----------------|-----------------|-----------------|---------------|
|-----------------|-----------2-----|-----------------|---------------|
|-----------------|---2---4-------2-|-----------------|---------------|
|---4---4---6---7-|-2---2---2---2---|-4---4---6---7---|-6---4---6---4-|
|-----4---4---4---|-----------------|---4---4---4---4-|---4---4---4---|
|-----------------|-----------------|-----------------|---------------|

|---------------|-----------------|-------------------|-----------------
|---------------|-----------2-----|-------------------|-----------------
|---------------|---2---4-------2-|-4---4---6---7--6~-|-4---6-4---------
|-4---4---6---7-|-2---2---2---2---|---4---4---4-------|---7-----7-6-4~~~
|---4---4---4---|-----------------|-------------------|-----------------
|---------------|-----------------|-------------------|-----------------


 more SENTENCED tabs at http://www.sci.fi/~asko/sntncd.html

    asko@sci.fi