Spinacino 1507a: Thematic Index


Spinacino 1507a: Description



---------------------------------------------------------------------------
SOURCE: Spinacino 1507a (f. 3r)
INSTRUMENT(S): solo 6c. lute
TITLE: Ave Maria de Josquin
GENRE: intabulation (motet)
ORIGINAL MODEL:
	Composer: Josquin des Prez
	Title: Ave Maria . . . benedicta tu
	Source: Motetti C (Venice: Petrucci, 1504), f. 2v; =RISM 1504-1
	Pitch: G (m3)
FINAL: 0/4th (m3)
METER: 2/4
INCIPIT:

   \ 
   \                      \
   \                  \   \

A-------------------|--------------------3--|-1--3--------------------|---
d-------------------|-----------3--1--0-----|-------0--1--3--------3--|---
g--0-2-3-2-3-2-0-2--|-3---2--0--------------|----------------0--2-----|-0-
b-------------------|-----------------------|-------------------------|---
e'------------------|-----------------------|-------------------------|---
a'------------------|-----------------------|-------------------------|-1-


NOTES: signed Francesco Spinacino at top of folio and also in index;
upstroke dots are omitted on all pieces

---------------------------------------------------------------------------
SOURCE: Spinacino 1507a (f. 4r)
INSTRUMENT(S): solo 6c. lute
TITLE: Benedictus de Isach
GENRE: intabulation (Mass movement)
ORIGINAL MODEL:
	Composer: Heinrich Isaac
	Title: Benedictus
	Source: Odhecaton A (Venice: Petrucci, 1501), f. 82v; =RISM 1501
	Pitch: G (m3)
FINAL: 0/6th (m3)
METER: 2/4
INCIPIT:

       \
       \       \                                    \                     \ 
   \   \       \                              \     \           \         \ 

G--------------3--------3-|----------3--2--0--2---|-0--2--3-------------|--
c--2---3-2-0-2----0--2----|-3--2--0---------------|----------0--2---4---|--
f-------------------------|-----------------------|---------------------|--
a-------------------------|-----------------------|-----------------3---|--
d'------------------------|-----------------------|-0-----------0-------|--
g'------------------------|-----------------------|---------------------|--


NOTES: signed Francesco Spinacino at top of folio and also in index

---------------------------------------------------------------------------

SOURCE: Spinacino 1507a (f. 5r)
INSTRUMENT(S): solo 6c. lute
TITLE: Le desproveu infortune [Le deproveu fortune]
GENRE: intabulation (chanson)
ORIGINAL MODEL:
	Composer: Philippe Caron
	Title: Le desproveu infortune
	Source: Canti C (Venice: Petrucci, 1504), f. 120v; =RISM 1504-3
	Pitch: G (m3)
FINAL: 0/4th (m3)
METER: 2/4
INCIPIT:

   \
   \               \ 
   \               \ 

A----------------|-------------------------|-------------------------|---
d----------------|-------------------------|-------------------------|-0-
g----------------|-0-----------------------|-0-----------------------|---
b----------------|-3-----------------------|-3-----------------------|---
e'-0-2-3-2-3-0-2-|-3--2--0--2--3-----------|-3--------------3--2--0--|---
a'---------------|----------------0--1--3--|-1--5--3--1--0-----------|---


NOTES: signed Francesco Spinacino at top of folio and also in index;
bracketed title found in index

---------------------------------------------------------------------------

SOURCE: Spinacino 1507a (f. 6v)
INSTRUMENT(S): solo 6c. lute
TITLE: Come feme
GENRE: intabulation (chanson)
ORIGINAL MODEL:
	Composer: Alexander Agricola (arr. of Gilles Binchois)
	Title: Comme feme desconfortee
	Source: Canti C (Venice: Petrucci, 1504), f. 107v; =RISM 1504-3
	Pitch: C (M3)
FINAL: 3/5th (M3)
METER: 2/4
INCIPIT:

   \                    \ 
   \                 \  \                                 \ 
   \                 \  \                             \   \     \ 

E------------------|----------------3-2-3-----------|-------------------|-
A------------------|----------------------0-2-3-----|-----3-------------|-
d------------------|----------------------------0-2-|-3-------------2---|-
f#-----------------|-1------------3-----------------|-3-----------------|-
b------------------|--------3-1-0-------------------|-1---1--3--1---1---|-
e'-0-2-3-2-3-2-0-2-|-3--2-0-------------------------|-----------0-------|-


NOTES: signed Francesco Spinacino at top of folio and also in index

---------------------------------------------------------------------------

SOURCE: Spinacino 1507a (f. 8r)
INSTRUMENT(S): solo 6c. lute
TITLE: Fortuna dun gran tempo
GENRE: intabulation (motet)
ORIGINAL MODEL:
	Composer: Josquin des Prez?
	Title: Fortuna dun gran tempo
	Source: Odhecaton A (Venice: Petrucci, 1501), f. 80v; =RISM 1501
	Pitch: F (M3)
FINAL: 3/6th (M3)
METER: 2/4
INCIPIT:

   \
   \                     \                      
   \                 \   \                               \   

D------------------|-----------------------|---------------------|---
G------------------|-0---------------------|---------------------|---
c------------------|-----------------------|-4-----------4---2---|-0-
e------------------|-3---------------------|---------------------|---
a------------------|-----0--2--3-----------|---------------------|---
d'-2-4-5-4-5-4-2-4-|-5------------0--2--3--|-5--3--5--7--5---3---|-2-


NOTES: signed Francesco Spinacino at top of folio and also in index

---------------------------------------------------------------------------

SOURCE: Spinacino 1507a (f. 9r)
INSTRUMENT(S): solo 6c. lute
TITLE: Una maistres
GENRE: intabulation (chanson)
ORIGINAL MODEL:
	Composer: Antoine Brumel
	Title: Una maistresse
	Source: Canti C (Venice: Petrucci, 1504), f. 158v; =RISM 1504-3
	Pitch: G (m3)
FINAL: 0/4th (m3)
METER: 2/4
INCIPIT:

   \
   \                 \ 
   \                 \    

A------------------|-------------------------|-------------------------|---
d------------------|-------------------------|-------------------------|---
g------------------|-0-----------0-----------|-3--0--2--3--0--2--3--0--|-2-
b------------------|-------------------------|-------------------------|---
e'-0-2-3-2-3-2-0-2-|-3--1--0--1--3-----------|-1-----------3-----------|-0-
a'-----------------|----------------0--1--3--|-5-----------5-----------|-3-


NOTES: signed Francesco Spinacino at top of folio and also in index

---------------------------------------------------------------------------

SOURCE: Spinacino 1507a (f. 10r)
INSTRUMENT(S): solo 6c. lute
TITLE: Vostre a Jamays [Vostre a maistres]
GENRE: intabulation (chanson)
ORIGINAL MODEL:
	Composer: Johannes Ghiselin
	Title: Vostre a Jamays
	Source: Canti C (Venice: Petrucci, 1504), f. 159v; =RISM 1504-3
	Pitch: A (m3)
FINAL: 0/5th (m3)
METER: 2/4
INCIPIT:

   \
   \                 \  
   \                 \  

E------------------|-------------------------|-------------------------|---
A------------------|-------------------------|-------------------------|---
d------------------|-------------------------|-2-----------------------|-0-
f#-----------------|-3--1--3-----------------|-------------3-----------|---
b------------------|----------0--1--3--------|-0--------3--1-----------|-3-
e'-2-4-5-4-5-4-2-4-|-5-----------------0--1--|-3--1--0-----0--3--1--0--|-1-


NOTES: signed Francesco Spinacino at top of folio and also in index; 
bracketed title found in index

---------------------------------------------------------------------------

SOURCE: Spinacino 1507a (f. 11r)
INSTRUMENT(S): two 6c. lutes
TITLE: Juli amours
GENRE: intabulation (chanson)
ORIGINAL MODEL:
	Composer: Antoine Ghiselin
	Title: Joli amours (Je loe amours)
	Source: Canti C (Venice: Petrucci, 1504), f. 138v; =RISM 1504-3
	Pitch: G (M3)
FINAL: 3/6th (M3)
METER: 3/4
INCIPIT:

   \
   \                 \
   \                 \                                                

E------------------|-------------------------------------|----------------3
A------------------|-------------------------------------|-------3--2--0---
d------------------|----------------------------7--5--3--|-2--0------------
f#-----------------|-------------------8--6--5-----------|-----------------
b--0-1-3-----------|----------8--7--5--------------------|-----------------
e'-------0-1-3-5-7-|-8--7--5-----------------------------|-----------------


                     |                                                 \ 

E------------------|-------------------------------------|-----------------
A------------------|-------------------------------------|-----------------
d------------------|-------------------------------------|-----------------
f#-----------------|-------------------------------------|-3-----------3---
b------------------|-1-----------1-----------1-----------|-1-----------1---
e'-----------------|-------------------------------------|-----------------


NOTES: signed Francesco Spinacino at top of folio and also in index

---------------------------------------------------------------------------

SOURCE: Spinacino 1507a (f. 16r)
INSTRUMENT(S): two 6c. lutes
TITLE: De tous biens
GENRE: intabulation (chanson)
ORIGINAL MODEL:
	Composer: Hayne van Ghizeghem
	Title: De tous biens playne
	Source: Odhecaton A (Venice: Petrucci, 1501), f. 22v; =RISM 1501
	Pitch: G (m3)
FINAL: 0/5th (m3)
METER: 2/4
INCIPIT:

   \
   \                                                                 

D--------------------------|-------------------------|---------------------
G--------------------------|-------------------------|---------------------
c--------------------------|-------------------------|---------------------
e--------------------------|-------------------------|---------------------
a--------------------------|-------------------8--7--|-5--7--8-------------
d'-5--4--5--7--8--5--7--8--|-5--7--8--5--7--5--------|----------5--7--8--X-


                                      \
   |                         \.       \  \             |                     

D--------------------------|-------------------------|---------------------
G--0-----------0-----------|-0-----------------------|---------------------
c--------------------------|-------------------------|---------------------
e--3-----------3-----------|-3--------2--3-----------|-3--------3----------
a--------------------------|-------------------0-----|-1--------1----------
d'-------------------------|-------------------------|---------------------


NOTES: signed Francesco Spinacino at top of folio and also in index

---------------------------------------------------------------------------

SOURCE: Spinacino 1507a (f. 19r)
INSTRUMENT(S): two 6c. lutes
TITLE: La Bernardina de Josquin
GENRE: intabulation (instrumental piece?)
ORIGINAL MODEL:
	Composer: Josquin des Prez
	Title: La bernardina
	Source: Canti C (Venice: Petrucci, 1504), f. 157v; =RISM 1504-3
	Pitch: C (M3)
FINAL: 3/6th (M3)
METER: 2/4
INCIPIT:

                               \             \
   \                     \     \       \     \         \
   \           \         \     \       \     \         \

A----------------------|-----------------------------|---------------------
d----------------------|-----------------------------|---------------------
g----------------------|-----------------------------|---------------------
b----------------------|---------------------------3-|---------------------
e'-0--1--3-------------|---------------3--1--3-1-0---|-0-----------8--7--5-
a'----------0--2---3---|-0--3--5-3-2-0---------------|----8--7--5----------


   \                     \                             \ 
   \           \         \     |             \         \           \

A--3-------------------|-----------------------------|-3-------------------
d-----0--2--3----------|-----------------------------|----0--2--3--------3-
g--------------0---2---|-2--0------------------------|-------------0-----2-
b----------------------|-------1-------------0-------|-1-------------------
e'---------------------|-----------------------------|---------------------
a'---------------------|-----------------------------|---------------------


NOTES: signed Francesco Spinacino at top of folio and also in index

---------------------------------------------------------------------------

SOURCE: Spinacino 1507a (f. 21r)
INSTRUMENT(S): two 6c. lutes
TITLE: Je ne fay
GENRE: intabulation (chanson)
ORIGINAL MODEL:
	Composer: anon.
	Title: Je ne fay plus
	Source: Odhecaton A (Venice: Petrucci, 1501), f. 10v; =RISM 1501
	Pitch: G (m3)
FINAL: 0/4th (m3)
METER: 2/4
INCIPIT:

   \
   \                     \ 
   \                 \   \ 

A------------------|-----------------------|-------------------------|---
d------------------|-----------------------|-------------------------|---
g------------------|-----------------------|-------------------3--2--|-0-
b------------------|-----------------------|-------------3--1--------|---
e'-----------------|-----------------------|----3--1--0--------------|---
a'-2-4-5-4-5-4-2-4-|-5---7--8--7--5--3--1--|-1-----------------------|---


                     |                                                 \ 

A------------------|-----------------------|-------------------------|---
d------------------|-----------------------|-------------------------|---
g------------------|-0---------0-----------|-0-----------0-----------|-3-
b------------------|-----------------------|-------------------------|---
e'-----------------|-3---------3-----------|-3-----------------------|---
a'-----------------|-----------------------|-------------1-----------|-1-


NOTES: signed Francesco Spinacino at top of folio and also in index

---------------------------------------------------------------------------

SOURCE: Spinacino 1507a (f. 23v)
INSTRUMENT(S): two 6c. lutes
TITLE: Jay pris amours
GENRE: intabulation (chanson)
ORIGINAL MODEL:
	Composer: Jean Japart
	Title: J'ay pris amours
	Source: Odhecaton A (Venice: Petrucci, 1501), f. 23v; =RISM 1501
	Pitch: G (m3)
FINAL: 0/6th (m3)
METER: 2/4
INCIPIT:

   \
   \                     \
   \                 \   \                                             

G------------------|-----------------------|-------------------------|---
c------------------|-----------------------|-------------------------|---
f------------------|-----------------------|-------------------------|---
a------------------|-----------------------|-------------------------|---
d'-2-4-5-4-5-4-2-4-|-5---------------------|-------------------------|-3-
g'-----------------|-----0--2--3--5--7--8--|-7--5--8--7--5--3--2--0--|---


                     |                                               

G------------------|-0---------0-----------|-0-----------0-----------|---
c------------------|-----------------------|-------------------------|-2-
f------------------|-2---------2-----------|-2-----------2-----------|-0-
a------------------|-----------------------|-------------------------|---
d'-----------------|-----------------------|-------------------------|---
g'-----------------|-----------------------|-------------------------|---


NOTES: signed Francesco Spinacino at top of folio and also in index; cf. version
for solo lute in Spinacino 1507b (f. 13r)

---------------------------------------------------------------------------

SOURCE: Spinacino 1507a (f. 26r)
INSTRUMENT(S): solo 6c. lute
TITLE: La Mora
GENRE: intabulation
ORIGINAL MODEL:
	Composer: Heinrich Isaac
	Title: La morra
	Source: Odhecaton A (Venice: Petrucci, 1501), f. 49v; =RISM 1501
	Pitch: G (m3)
FINAL: 0/6th (m3)
METER: 2/4
INCIPIT:

   \
   \                     \                       \ 
   \                 \   \                   \   \

G------------------|-7---------------------|-----7-----------------|---
c------------------|-----4--6--7-----------|--------4--6--7--------|---
f------------------|--------------4--6--8--|-9---------------4--6--|-4-
a------------------|-----------------------|-----------------------|---
d'-----------------|-0---------------------|-----0-----------------|-2-
g'-4-6-7-6-7-6-4-6-|-7---------------------|-----7-----------------|-5-


NOTES: signed Francesco Spinacino at top of folio and also in index

---------------------------------------------------------------------------

SOURCE: Spinacino 1507a (f. 27r)
INSTRUMENT(S): solo 6c. lute
TITLE: O Venus banth
GENRE: intabulation (chanson)
ORIGINAL MODEL:
	Composer: Josquin des Prez?
	Title: O Venus bant
	Source: Odhecaton A (Venice: Petrucci, 1501), f. 84v; =RISM 1501
	Pitch: G (M3)
FINAL: 0/5th (M3)
METER: 2/4
INCIPIT:

         \                    \                 \              \ 
   \.    \  \                 \     \     \.    \        \     \ 

D-------------------|-------------------|--------------------|---
G--0-----2--4-------|-------------------|--------------------|---
c---------------0---|-----2---2--0--2---|-4------------------|---
e--3----------------|-------------------|-3-----1--3--1--3---|-3-
a'------------------|-0-------0---------|--------------------|---
d'-5-----3--0---2---|-----4---4--2--4---|-5--------0-----2---|-0-


NOTES: signed Francesco Spinacino at top of folio and also in index

---------------------------------------------------------------------------

SOURCE: Spinacino 1507a (f. 27v)
INSTRUMENT(S): solo 6c. lute
TITLE: La Bernardina de Josquin
GENRE: intabulation (instrumental piece)
ORIGINAL MODEL:
	Composer: Josquin des Prez
	Title: La bernardina
	Source: Canti C (Venice: Petrucci, 1504), f. 157v; =RISM 1504-3
	Pitch: C (M3)
FINAL: 3/6th (M3)
METER: 2/4
INCIPIT:

   
   \                     \         \             \                     \
   \           \         \     \   \             \           \   \     \

A--3-------------------|-----------------------|-3-------------------|---
d-----0--2--3----------|-----------------------|----0--2--3------3---|---
g--------------0---2---|-2--0------------------|-------------0---2---|-2-
b----------------------|-------1---0--1--3--0--|-1-------------------|---
e'---------------------|-----------------------|---------------------|---
a'---------------------|-----------------------|---------------------|---


NOTES: signed Francesco Spinacino at top of folio and also in index

---------------------------------------------------------------------------

SOURCE: Spinacino 1507a (f. 28v)
INSTRUMENT(S): solo 6c. lute
TITLE: Bassadans
GENRE: dance (La Spagna)
ORIGINAL MODEL:
	Composer: anon.
	Title: La Spagna
	Source: Canti C (Venice: Petrucci, 1504), f. 147v; =RISM 1504-3
	Pitch: d (m3)
FINAL: 0/5th (m3)
METER: 3/4
INCIPIT:

                   \                             \ 
   \               \             \               \             \ 

A--0---------------0-----------|-------------1---0--2--3-----|---
d----------3-------------------|-----3---0----------------0--|-2-
g------2-------2---2-----------|-2---------------------------|---
b---------------------0--1--3--|-----------------------------|---
e'-----------------------------|-0-------1---3---------------|-0-
a'-----------------0-----------|-----0-----------0-----------|---


NOTES:

---------------------------------------------------------------------------

SOURCE: Spinacino 1507a (f. 31r)
INSTRUMENT(S): solo 6c. lute
TITLE: Ma buche rit
GENRE: intabulation (chanson)
ORIGINAL MODEL:
	Composer: Johannes Ockeghem
	Title: Ma bouche rit
	Source: Odhecaton A (Venice: Petrucci, 1501), f. 59v; =RISM 1501
	Pitch: A (m3)
FINAL: 0/4th (m3)
METER: 2/4
INCIPIT:

    \
    \         \                        
    \         \                      

B-----------|-------------------------|------------------------|---
e-----------|----3--1--0--------------|----3----------------3--|-5-
a-----------|-0-----------0--2--3--2--|-0-----0--2--3--2--0----|-3-
c#'---------|-------------------------|-3-----------3----------|-3-
f#'-3-2-0-2-|-3-----------------------|------------------------|-3-
b'----------|-------------------------|------------------------|---


NOTES: transposed down a step

---------------------------------------------------------------------------

SOURCE: Spinacino 1507a (f. 32v)
INSTRUMENT(S): solo 6c. lute
TITLE: Adiu mes amours
GENRE: intabulation (chanson)
ORIGINAL MODEL:
	Composer: Josquin des Prez
	Title: Adieu mes amours
	Source: Odhecaton A (Venice: Petrucci, 1501), f. 16v; =RISM 1501
	Pitch: G (m3)
FINAL: 0/4th (m3)
METER: 2/4
INCIPIT:

   \
   \                              \                         \  
   \             |                \             \           \       \ 

A--------------|-----------|------------------|-------------------|---
d--------------|-----------|------------------|-------------------|---
g--------------|-----------|------------------|-0-------3---------|-2-
b--------------|-----------|------------------|---------3---------|---
e'-0-2-3-2-0-3-|-3----3----|-2----3-----------|-3---1-------------|-0-
a'-------------|------1----|-0-------0--1--3--|-5-------5---3--1--|-3-


NOTES: signed Francesco Spinacino in index

---------------------------------------------------------------------------

SOURCE: Spinacino 1507a (f. 33v)
INSTRUMENT(S): solo 6c. lute
TITLE: Nunquam fuit pena maior
GENRE: intabulation (motet)
ORIGINAL MODEL:
	Composer: Johannes Urreda
	Title: Nunqua fue pena maior
	Source: Odhecaton A (Venice: Petrucci, 1501), f. 6v; =RISM 1501
	Pitch: G (M3)
FINAL: 3/5th (M3)
METER: 2/4
INCIPIT:

    \
    \         \                         
    \         \                         

B-----------|-------------------------|-------------------------|---
e-----------|-0-----------------3--1--|-0-----------------------|-0-
a-----------|-2--0--2--3--2--0--------|-2-----------------------|---
c#'-3-2-0-2-|-3-----------------------|-3--------------4--3--1--|-3-
f#'---------|-------------------------|-1--0--1--3--1-----------|-1-
b'----------|-------------------------|-------------------------|---


NOTES: transposed down a step

---------------------------------------------------------------------------

SOURCE: Spinacino 1507a (f. 35v)
INSTRUMENT(S): solo 6c. lute
TITLE: Non sovenir (chanson)
GENRE: intabulation
ORIGINAL MODEL:
	Composer: Hayne van Ghizeghem?
	Title: Mon souvenir
	Source: Odhecaton A (Venice: Petrucci, 1501), f. 90v; =RISM 1501
	Pitch: G (m3)
FINAL: 0/4th (m3)
METER: 2/4
INCIPIT:

   \
   \                 \                          
   \                 \                            

A------------------|-------------------------|-3-----------3----------
d------------------|-------------------------|------------------------
g------------------|-0-----------0-----------|-0-----5--------------5-
b------------------|-------------------4--3--|-4--3-----3-----4--3----
d'-3-2-0-2-3-2-0-2-|-3-----------3--1--------|-3--------------3-------
a'-----------------|----0--1--0--------------|------------------------


NOTES:

---------------------------------------------------------------------------

SOURCE: Spinacino 1507a (f. 36v)
INSTRUMENT(S): solo 6c. lute
TITLE: Fortuna per te crudele
GENRE: intabulation
ORIGINAL MODEL:
	Composer: Johannes Vincenet
	Title: Fortuna per ta crudelte
	Source: Odhecaton A (Venice: Petrucci, 1501), f. 65v; =RISM 1501
	Pitch: C (m3)
FINAL: 3/6th (m3)
METER: 2/4
INCIPIT:

   \
   \               \                      \ 
   \         \.    \        \             \             \ 

A----------|-3-----2--3---------|---------------------|---------3-------|
d----------|-------------0--1---|-3----------------3--|-1---------------|
g----------|--------------------|-----0---1-----0-----|-----0-------1---|
b----------|-1------------------|---------------------|-4---------------|
e'---------|--------------------|---------------------|-3---------------|
a'-3-2-0-2-|-3------------------|-3---1------3--1--0--|-----1---3-------|


NOTES:

---------------------------------------------------------------------------

SOURCE: Spinacino 1507a (f. 37v)
INSTRUMENT(S): solo 6c. lute
TITLE: Recercare de tous biens
GENRE: abstract piece (ricercare)
FINAL: 0/5th (m3)
METER: 2/8
INCIPIT:

   \                                                                  
   \                                                                 

D--------------|-------------|-------------|-------------|-------------|-
G--------------|-------------|-------------|-------------|-------------|-
c--------------|-------------|-------------|-------------|-------2--0--|-
e--------------|-------------|-------------|----------3--|-1--0--------|-
a--------------|-------------|-------------|-3--1--0-----|-------------|-
d'-5--7--8--5--|-8--7--8--7--|-5--3--2--0--|-------------|-------------|-


NOTES: signed Francesco Spinacino at top of folio; ricercare for 
"De tous biens" on f. 16r.

---------------------------------------------------------------------------

SOURCE: Spinacino 1507a (f. 38r)
INSTRUMENT(S): solo 6c. lute
TITLE: Recercare a Juli amours
GENRE: abstract piece (ricercare)
FINAL: 3/5th (M3)
METER: 2/8
INCIPIT:

         \      \                                                      
   \     \  \   \                                                      

E------|-----------|-------------|-------------|-------------|------------
A------|-----------|-------------|-------------|-------------|------------
d------|-----------|-------------|-------------|-------------|------------
f#-----|-----------|-------------|-------------|-------------|------------
b------|----1---0--|-1--3--------|-------------|-5--7--8-----|------------
e'-3---|-3---------|-------0--2--|-3--5--7--8--|----------5--|-7--8--X--9-


NOTES: signed Francesco Spinacino at top of folio; (ricercare) for 
"Juli amours" on f. 11r.

---------------------------------------------------------------------------
SOURCE: Spinacino 1507a (f. 39r)
INSTRUMENT(S): solo 6c. lute
TITLE: Recercare
GENRE: abstract piece (ricercare)
FINAL: 3/6th (M3)
METER: 2/4
INCIPIT:

            \                                         \               
    \       \                       \                 \               

  ----------------------|-------3-----------|---------------------|---
  -------------------3--|-2--0--------------|---------------------|---
  -------------2--0-----|-----------2-------|-----0---------------|---
  --1-------0-----------|-------------------|---------1--3--------|---
  ------0---------------|---------------0---|-2---3---------0--1--|-3-
  ------3---------------|---------------3---|-----2---------------|---


NOTES: signed Francesco Spinacino at top of folio

---------------------------------------------------------------------------
SOURCE: Spinacino 1507a (f. 39v)
INSTRUMENT(S): solo 6c. lute
TITLE: Recercare
GENRE: abstract piece (ricercare)
FINAL: 0/6th (m3)
METER: 2/4
INCIPIT:

        \                                                             
   |    \                                                             

  -5----------------|-------------------------|-------------------------|
  ------------------|-------------------------|-------------------3--2--|
  ------------------|-------------------------|----3--2--0--2--0--------|
  ------------------|----------------------3--|-1-----------------------|
  ------------------|-3-----------3--1--0-----|-------------------------|
  -5----5--3--1--0--|----0--1--0--------------|-------------------------|


NOTES:

---------------------------------------------------------------------------

SOURCE: Spinacino 1507a (f. 40v)
INSTRUMENT(S): solo 6c. lute
TITLE: Recercare de tutti li Toni
GENRE: abstract piece (ricercare)
FINAL: 0/5th (m3) > 2/5th (m3) > 3/5th (M3) > 0/4th (M3)
METER: 2/4
INCIPIT:

                                 \                                    
         \                    \  \                   \                 
   \.    \  \                 \  \             \.    \                \ 

  ------------------|------------------------|----------------------|---
  -0------------2---|-3---2---0--------------|-2-----0--2--3--------|---
  ----------2-------|------------------------|----------------0--2--|-0-
  -3----------------|----------------------3-|-1--------------------|-3-
  -------0--1---3---|-----3---1--0-1-3-1-0---|----------------------|---
  ------------------|-0----------------------|----------------------|---


NOTES:

---------------------------------------------------------------------------

SOURCE: Spinacino 1507a (f. 42v)
INSTRUMENT(S): solo 6c. lute
TITLE: Recercare
GENRE: abstract piece (ricercare)
FINAL: 0/5th (m3)
METER: 2/4
INCIPIT:

                                                                     
   \                      \               \                          
   \           \          \           \   \                   \       

  ----------------------|-1-----------0---------|-------------1---3---|
  -0-----------3---2----|-------------2---------|---------------------|
  -2--------------------|-------------2---------|---------------------|
  -3--------------------|-3--------3--2---3-----|-------3--2--3-------|
  ----0--1--3------3----|----0--1------------0--|-1--0------------0---|
  -------------0--------|-----------------------|---------------------|


NOTES:

---------------------------------------------------------------------------

SOURCE: Spinacino 1507a (f. 43r)
INSTRUMENT(S): solo 6c. lute
TITLE: Recercare
GENRE: abstract piece (ricercare)
FINAL: 0/6th (M3)
METER: 2/4
INCIPIT:

           \                   \           \               \         
   \       \     \             \     \     \           \   \         

  -4-------4---------|---------0---------|-----------------------|---
  -------------------|-0-----------------|-----------------------|---
  -------------------|-------------------|-4---------------------|---
  -2-----------------|-------------------|-------------2---3-----|---
  -----0------2--4---|-2-----------------|-------4--2--0---2--0--|-2-
  -------------------|-----0------2--4---|-2--0------------------|---


NOTES:

---------------------------------------------------------------------------

SOURCE: Spinacino 1507a (f. 44r)
INSTRUMENT(S): solo 6c. lute
TITLE: Recercare
GENRE: abstract piece (ricercare)
FINAL: 3/6th (M3)
METER: 2/4
INCIPIT:

         \                                        \                  
   \.    \          \                             \       \          

  -3--------|-----------|---------|---------|-3---------|---------|---
  ----------|-------2---|-3-------|-2---0---|-----0--2--|-3-------|---
  ----------|-----------|---------|---------|-----------|-----0---|-2-
  -1-----3--|-----------|-----1---|---------|-----------|---------|---
  ----------|-0--1--3---|---------|-3---1---|-0---------|---------|---
  ----------|-----------|-0-------|---------|-----------|---------|---


NOTES:

---------------------------------------------------------------------------

SOURCE: Spinacino 1507a (f. 44v)
INSTRUMENT(S): solo 6c. lute
TITLE: Recercare
GENRE: abstract piece (ricercare)
FINAL: 0/5th (m3)
METER: 2/8
INCIPIT:

                                                                     
   \                                                                 

  ---------|---------|---------|---------|---------|---------|---------|-
  ---------|---------|---------|---------|---------|-4-------|-2-------|-
  ---------|---------|---------|-2-------|-0-------|---------|-----0---|-
  -3-------|---------|-3---0---|---------|---------|---------|---------|-
  ---------|-0-------|-----3---|-----2---|-3-------|---------|---------|-
  -0---2---|-----3---|-2-------|---------|-----2---|-----0---|-2-------|-


NOTES:

---------------------------------------------------------------------------

SOURCE: Spinacino 1507a (f. 46v)
INSTRUMENT(S): solo 6c. lute
TITLE: Recercare
GENRE: abstract piece (ricercare)
FINAL: 3/6th (M3)
METER: 2/8
INCIPIT:

       \            \                                                   
       \         \  \                                                   
   \   \         \  \                                                 | 

  -------------|----------------|-----------------|-----------------|-3-
  -------------|----------------|-----------------|-3-----3---3-2-0-|-2-
  -------------|----------------|-----------3-2-0-|---0-2---0-------|-0-
  -------------|--------------3-|-1-3---3-1-------|-----------------|-1-
  -------3-----|--------3-1-0---|-----0-----------|-----------------|-3-
  -0---0---0-2-|-3--2-0---------|-----------------|-----------------|---


NOTES:

---------------------------------------------------------------------------

SOURCE: Spinacino 1507a (f. 47r)
INSTRUMENT(S): solo 6c. lute
TITLE: Recercare
GENRE: abstract piece (ricercare)
FINAL: 3/5th (M3)
METER: 2/4
INCIPIT:

                     \                     \                           
   \                 \           \         \     \                        

  -----------------|-1---------------1---|-------------------|-----------
  -3-----------0---|-------------3-------|-------------------|-3---2---0-
  -----2---0-------|-0-----------2---3---|-------2---0-------|-----------
  -----------------|----------3--1---3---|-3-----------------|-1---1-----
  -1---0---3---1---|-3--1--0-------------|----0--1-------0---|-1---3---1-
  -0---3---1---0---|---------------------|-------------------|-----------


NOTES:

---------------------------------------------------------------------------

SOURCE: Spinacino 1507a (f. 47v)
INSTRUMENT(S): solo 6c. lute
TITLE: Recercare
GENRE: abstract piece (ricercare)
FINAL: 2/6th (m3)
METER: 2/4
INCIPIT:

               \                          \                           
   |           \           \         |    \             |    \        

  -3---------|---------------------|------------------|------------|---
  ------0----|-2--3----------------|------------------|------------|---
  -----------|-------0--2----------|------------------|------------|---
  -----------|-------------0---1---|-3----------------|------3-----|---
  -----------|---------------------|------0--1--3-----|-1-------0--|-1-
  -----------|---------------------|---------------0--|------------|---


NOTES:

---------------------------------------------------------------------------

SOURCE: Spinacino 1507a (f. 49r)
INSTRUMENT(S): solo 6c. lute
TITLE: Recercare
GENRE: abstract piece (ricercare)
FINAL: 0/6th (m3)
METER: 2/4
INCIPIT:

             \                                                          
          \  \                       \                                  
   |      \  \             \         \             \                    

  ------|----------------|---------|-------------|-----------|---------|-
  ------|----------------|---------|-------------|-----------|---------|-
  ------|----------------|---------|-------------|-----------|---------|-
  ------|----------------|-2---3---|----------3--|-2----3----|-----5---|-
  ------|----3-------3-1-|-0---1---|-3--1--0-----|-0----1----|-3-------|-
  -0----|-0----0-1-0-----|---------|-------------|-----------|---------|-


NOTES:

---------------------------------------------------------------------------

SOURCE: Spinacino 1507a (f. 50r)
INSTRUMENT(S): solo 6c. lute
TITLE: Recercare
GENRE: abstract piece (ricercare)
FINAL: 0/6th (m3)
METER: 2/4
INCIPIT:

                           \              \                            
   |       \         \.    \    \         \             \               

  -0-----|-0---0---|-3--------|---------|-------------|---------|--------
  -------|---------|-------0--|-2---3---|----3--2--0--|-2-------|-0---2--
  -------|---------|----------|-----2---|-0-----------|-0-------|--------
  -------|---------|----------|---------|-------------|-----1---|-0---1--
  -------|---------|----------|---------|-------------|---------|--------
  -------|---------|----------|---------|-------------|---------|--------


NOTES:

---------------------------------------------------------------------------

SOURCE: Spinacino 1507a (f. 51r)
INSTRUMENT(S): solo 6c. lute
TITLE: Recercare
GENRE: abstract piece (ricercare)
FINAL: 2/5th (m3)
METER: 2/4
INCIPIT:

         \                          \                            \     
   \.    \          \               \                   \[.]     \     

  ----------|-----------|---------|-------------|-------3---|------------
  ----------|-----------|-2-------|-3--------3--|-2--0------|----0--2--3-
  ----------|-------2---|---------|----0--2-----|-----------|------------
  -------3--|-1--0------|-----0---|-------------|-----------|------------
  -0--------|-----------|---------|-------------|-----------|------------
  ----------|-----------|---------|-------------|-----------|------------


NOTES:

---------------------------------------------------------------------------

SOURCE: Spinacino 1507a (f. 52r)
INSTRUMENT(S): solo 6c. lute
TITLE: Recercare
GENRE: abstract piece (ricercare)
FINAL: 0/6th (m3)
METER: 2/8
INCIPIT:

   \                               \                         \         
   \                           \   \                     \   \         

  -------------|-------------|-----------|-------------|-----------|---
  -------------|-------------|-----------|-------------|-----------|---
  -------------|-------------|-----------|-------------|-----------|---
  -3--2--3-----|-------------|-----3--1--|-0--1--3-----|--------3--|-1-
  ----------0--|-1--3--------|-0---------|----------0--|-1---0-----|---
  -0-----------|-------0--2--|-3---------|-------------|-0---------|---


NOTES:

---------------------------------------------------------------------------

SOURCE: Spinacino 1507a (f. 53v)
INSTRUMENT(S): solo 6c. lute
TITLE: Recercare
GENRE: abstract piece (ricercare)
FINAL: 3/6th (M3)
METER: 2/4
INCIPIT:

         \                                                            
   \.    \                                                            

  ----------|-------------|-------------|-------------|-------------|---
  ----------|-------------|-------------|-------------|-------------|---
  ----------|-------------|-------------|-------------|-------------|---
  -1-----3--|-------------|-------------|-------------|-------------|---
  ----------|-0--1--3-----|----3--------|-------------|-------------|---
  ----------|----------0--|-2-----0--2--|-3--0--2--3--|-5--3--2--0--|-1-


NOTES:

---------------------------------------------------------------------------

Spinacino 1507a: Description

 [ Lute Image ]